ISO-10303-21;
HEADER;
FILE_DESCRIPTION(('Beschreibung'),'1');
FILE_NAME('V:/Ziel/25.91.03.103_SDR_11_PE100_400_280.STP', '2014-09-15T06:31:49',('Author'), ('Organization'), 'KCM Version 1.1.794.0', 'Kubotek KeyCreator', 'Authorization');
FILE_SCHEMA(('CONFIG_CONTROL_DESIGN'));
ENDSEC;
DATA;
#1=DESIGN_CONTEXT('',#4,'design');
#2=MECHANICAL_CONTEXT('',#4,'mechanical');
#3=APPLICATION_PROTOCOL_DEFINITION('INTERNATIONAL STANDARD','config_control_design',1994,#4);
#4=APPLICATION_CONTEXT('CONFIGURATION CONTROLLED 3D DESIGNS OF MECHANICAL PARTS AND ASSEMBLIES');
#5=DATE_AND_TIME(#8,#9);
#6=DATE_TIME_ROLE('creation_date');
#7=COORDINATED_UNIVERSAL_TIME_OFFSET(5,30,.AHEAD.);
#8=CALENDAR_DATE(2014,9,15);
#9=LOCAL_TIME(06,31,49.0,#7);
#10=DIMENSIONAL_EXPONENTS(1.0,0.0,0.0,0.0,0.0,0.0,0.0);
#11=DIMENSIONAL_EXPONENTS(0.0,0.0,0.0,0.0,0.0,0.0,0.0);
#12= (NAMED_UNIT(#10)LENGTH_UNIT()SI_UNIT(.MILLI.,.METRE.));
#13= (NAMED_UNIT(#11)PLANE_ANGLE_UNIT()SI_UNIT($,.RADIAN.));
#14= (NAMED_UNIT(#11)SOLID_ANGLE_UNIT()SI_UNIT($,.STERADIAN.));
#15=LENGTH_MEASURE_WITH_UNIT(LENGTH_MEASURE(1.0),#12);
#16= (CONVERSION_BASED_UNIT('MILLIMETRE',#15)LENGTH_UNIT()NAMED_UNIT(#10));
#17=UNCERTAINTY_MEASURE_WITH_UNIT(LENGTH_MEASURE(1.0E-006),#16,'','');
#18= (GEOMETRIC_REPRESENTATION_CONTEXT(3)GLOBAL_UNCERTAINTY_ASSIGNED_CONTEXT((#17))GLOBAL_UNIT_ASSIGNED_CONTEXT((#16,#13,#14))REPRESENTATION_CONTEXT('NONE','WORKSPACE'));
#19=DATE_TIME_ROLE('classification_date');
#20=CARTESIAN_POINT('',(0.000000000000000,0.000000000000000,0.000000000000000));
#21=DIRECTION('',(0.000000000000000,0.000000000000000,1.00000000000000));
#22=DIRECTION('',(1.00000000000000,0.000000000000000,0.000000000000000));
#23=AXIS2_PLACEMENT_3D('',#20,#21,#22);
#24=CARTESIAN_POINT('',(190.000000000000,200.000000000000,0.000000000000000));
#25=VERTEX_POINT('',#24);
#26=CARTESIAN_POINT('',(190.000000000000,0.000000000000000,0.000000000000000));
#27=DIRECTION('',(1.00000000000000,0.000000000000000,0.000000000000000));
#28=DIRECTION('',(0.000000000000000,1.00000000000000,0.000000000000000));
#29=AXIS2_PLACEMENT_3D('',#26,#27,#28);
#30=CIRCLE('',#29,200.000000000000);
#31=EDGE_CURVE('',#25,#25,#30,.T.);
#32=ORIENTED_EDGE('',*,*,#31,.F.);
#33=CARTESIAN_POINT('',(0.000000000000000,200.000000000000,0.000000000000000));
#34=VERTEX_POINT('',#33);
#35=CARTESIAN_POINT('',(95.0000000000000,200.000000000000,0.000000000000000));
#36=DIRECTION('',(1.00000000000000,0.000000000000000,0.000000000000000));
#37=VECTOR('',#36,200.000000000000);
#38=LINE('',#35,#37);
#39=EDGE_CURVE('',#34,#25,#38,.T.);
#40=ORIENTED_EDGE('',*,*,#39,.F.);
#41=CARTESIAN_POINT('',(0.000000000000000,0.000000000000000,0.000000000000000));
#42=DIRECTION('',(1.00000000000000,0.000000000000000,0.000000000000000));
#43=DIRECTION('',(0.000000000000000,1.00000000000000,0.000000000000000));
#44=AXIS2_PLACEMENT_3D('',#41,#42,#43);
#45=CIRCLE('',#44,200.000000000000);
#46=EDGE_CURVE('',#34,#34,#45,.T.);
#47=ORIENTED_EDGE('',*,*,#46,.T.);
#48=ORIENTED_EDGE('',*,*,#39,.T.);
#49=EDGE_LOOP('',(#32,#40,#47,#48));
#50=FACE_OUTER_BOUND('',#49,.T.);
#51=CARTESIAN_POINT('',(95.0000000000000,0.000000000000000,0.000000000000000));
#52=DIRECTION('',(1.00000000000000,0.000000000000000,0.000000000000000));
#53=DIRECTION('',(0.000000000000000,1.00000000000000,0.000000000000000));
#54=AXIS2_PLACEMENT_3D('',#51,#52,#53);
#55=CYLINDRICAL_SURFACE('',#54,200.000000000000);
#56=ADVANCED_FACE('',(#50),#55,.T.);
#57=CARTESIAN_POINT('',(310.000000000000,140.000000000000,0.000000000000000));
#58=VERTEX_POINT('',#57);
#59=CARTESIAN_POINT('',(310.000000000000,0.000000000000000,0.000000000000000));
#60=DIRECTION('',(1.00000000000000,0.000000000000000,0.000000000000000));
#61=DIRECTION('',(0.000000000000000,1.00000000000000,0.000000000000000));
#62=AXIS2_PLACEMENT_3D('',#59,#60,#61);
#63=CIRCLE('',#62,140.000000000000);
#64=EDGE_CURVE('',#58,#58,#63,.T.);
#65=ORIENTED_EDGE('',*,*,#64,.F.);
#66=CARTESIAN_POINT('',(250.000000000000,170.000000000000,0.000000000000000));
#67=DIRECTION('',(0.894427190999916,-0.447213595499958,0.000000000000000));
#68=VECTOR('',#67,170.000000000000);
#69=LINE('',#66,#68);
#70=EDGE_CURVE('',#25,#58,#69,.T.);
#71=ORIENTED_EDGE('',*,*,#70,.F.);
#72=ORIENTED_EDGE('',*,*,#31,.T.);
#73=ORIENTED_EDGE('',*,*,#70,.T.);
#74=EDGE_LOOP('',(#65,#71,#72,#73));
#75=FACE_OUTER_BOUND('',#74,.T.);
#76=CARTESIAN_POINT('',(250.000000000000,0.000000000000000,0.000000000000000));
#77=DIRECTION('',(-1.00000000000000,-0.000000000000000,-0.000000000000000));
#78=DIRECTION('',(0.000000000000000,1.00000000000000,0.000000000000000));
#79=AXIS2_PLACEMENT_3D('',#76,#77,#78);
#80=CONICAL_SURFACE('',#79,170.000000000000,0.463647609000806);
#81=ADVANCED_FACE('',(#75),#80,.T.);
#82=CARTESIAN_POINT('',(465.000000000000,140.000000000000,0.000000000000000));
#83=VERTEX_POINT('',#82);
#84=CARTESIAN_POINT('',(465.000000000000,0.000000000000000,0.000000000000000));
#85=DIRECTION('',(1.00000000000000,0.000000000000000,0.000000000000000));
#86=DIRECTION('',(0.000000000000000,1.00000000000000,0.000000000000000));
#87=AXIS2_PLACEMENT_3D('',#84,#85,#86);
#88=CIRCLE('',#87,140.000000000000);
#89=EDGE_CURVE('',#83,#83,#88,.T.);
#90=ORIENTED_EDGE('',*,*,#89,.F.);
#91=CARTESIAN_POINT('',(387.500000000000,140.000000000000,0.000000000000000));
#92=DIRECTION('',(1.00000000000000,0.000000000000000,0.000000000000000));
#93=VECTOR('',#92,140.000000000000);
#94=LINE('',#91,#93);
#95=EDGE_CURVE('',#58,#83,#94,.T.);
#96=ORIENTED_EDGE('',*,*,#95,.F.);
#97=ORIENTED_EDGE('',*,*,#64,.T.);
#98=ORIENTED_EDGE('',*,*,#95,.T.);
#99=EDGE_LOOP('',(#90,#96,#97,#98));
#100=FACE_OUTER_BOUND('',#99,.T.);
#101=CARTESIAN_POINT('',(387.500000000000,0.000000000000000,0.000000000000000));
#102=DIRECTION('',(1.00000000000000,0.000000000000000,0.000000000000000));
#103=DIRECTION('',(0.000000000000000,1.00000000000000,0.000000000000000));
#104=AXIS2_PLACEMENT_3D('',#101,#102,#103);
#105=CYLINDRICAL_SURFACE('',#104,140.000000000000);
#106=ADVANCED_FACE('',(#100),#105,.T.);
#107=ORIENTED_EDGE('',*,*,#89,.T.);
#108=EDGE_LOOP('',(#107));
#109=FACE_OUTER_BOUND('',#108,.T.);
#110=CARTESIAN_POINT('',(465.000000000000,103.700000000000,0.000000000000000));
#111=VERTEX_POINT('',#110);
#112=CARTESIAN_POINT('',(465.000000000000,0.000000000000000,0.000000000000000));
#113=DIRECTION('',(1.00000000000000,0.000000000000000,0.000000000000000));
#114=DIRECTION('',(0.000000000000000,1.00000000000000,0.000000000000000));
#115=AXIS2_PLACEMENT_3D('',#112,#113,#114);
#116=CIRCLE('',#115,103.700000000000);
#117=EDGE_CURVE('',#111,#111,#116,.T.);
#118=ORIENTED_EDGE('',*,*,#117,.F.);
#119=EDGE_LOOP('',(#118));
#120=FACE_BOUND('',#119,.T.);
#121=CARTESIAN_POINT('',(465.000000000000,121.850000000000,0.000000000000000));
#122=DIRECTION('',(1.00000000000000,0.000000000000000,0.000000000000000));
#123=DIRECTION('',(-0.000000000000000,1.00000000000000,-0.000000000000000));
#124=AXIS2_PLACEMENT_3D('',#121,#122,#123);
#125=PLANE('',#124);
#126=ADVANCED_FACE('',(#109,#120),#125,.T.);
#127=ORIENTED_EDGE('',*,*,#117,.T.);
#128=CARTESIAN_POINT('',(301.430732000000,103.700000000000,0.000000000000000));
#129=VERTEX_POINT('',#128);
#130=CARTESIAN_POINT('',(383.215366000000,103.700000000000,0.000000000000000));
#131=DIRECTION('',(1.00000000000000,0.000000000000000,0.000000000000000));
#132=VECTOR('',#131,103.700000000000);
#133=LINE('',#130,#132);
#134=EDGE_CURVE('',#129,#111,#133,.T.);
#135=ORIENTED_EDGE('',*,*,#134,.F.);
#136=CARTESIAN_POINT('',(301.430732000000,0.000000000000000,0.000000000000000));
#137=DIRECTION('',(1.00000000000000,0.000000000000000,0.000000000000000));
#138=DIRECTION('',(0.000000000000000,1.00000000000000,0.000000000000000));
#139=AXIS2_PLACEMENT_3D('',#136,#137,#138);
#140=CIRCLE('',#139,103.700000000000);
#141=EDGE_CURVE('',#129,#129,#140,.T.);
#142=ORIENTED_EDGE('',*,*,#141,.F.);
#143=ORIENTED_EDGE('',*,*,#134,.T.);
#144=EDGE_LOOP('',(#127,#135,#142,#143));
#145=FACE_OUTER_BOUND('',#144,.T.);
#146=CARTESIAN_POINT('',(383.215366000000,0.000000000000000,0.000000000000000));
#147=DIRECTION('',(1.00000000000000,0.000000000000000,0.000000000000000));
#148=DIRECTION('',(0.000000000000000,1.00000000000000,0.000000000000000));
#149=AXIS2_PLACEMENT_3D('',#146,#147,#148);
#150=CYLINDRICAL_SURFACE('',#149,103.700000000000);
#151=ADVANCED_FACE('',(#145),#150,.F.);
#152=ORIENTED_EDGE('',*,*,#141,.T.);
#153=CARTESIAN_POINT('',(181.430732000000,163.700000000000,0.000000000000000));
#154=VERTEX_POINT('',#153);
#155=CARTESIAN_POINT('',(241.430732000000,133.700000000000,0.000000000000000));
#156=DIRECTION('',(0.894427190999916,-0.447213595499958,0.000000000000000));
#157=VECTOR('',#156,133.700000000000);
#158=LINE('',#155,#157);
#159=EDGE_CURVE('',#154,#129,#158,.T.);
#160=ORIENTED_EDGE('',*,*,#159,.F.);
#161=CARTESIAN_POINT('',(181.430732000000,0.000000000000000,0.000000000000000));
#162=DIRECTION('',(1.00000000000000,0.000000000000000,0.000000000000000));
#163=DIRECTION('',(0.000000000000000,1.00000000000000,0.000000000000000));
#164=AXIS2_PLACEMENT_3D('',#161,#162,#163);
#165=CIRCLE('',#164,163.700000000000);
#166=EDGE_CURVE('',#154,#154,#165,.T.);
#167=ORIENTED_EDGE('',*,*,#166,.F.);
#168=ORIENTED_EDGE('',*,*,#159,.T.);
#169=EDGE_LOOP('',(#152,#160,#167,#168));
#170=FACE_OUTER_BOUND('',#169,.T.);
#171=CARTESIAN_POINT('',(241.430732000000,0.000000000000000,0.000000000000000));
#172=DIRECTION('',(-1.00000000000000,-0.000000000000000,-0.000000000000000));
#173=DIRECTION('',(0.000000000000000,1.00000000000000,0.000000000000000));
#174=AXIS2_PLACEMENT_3D('',#171,#172,#173);
#175=CONICAL_SURFACE('',#174,133.700000000000,0.463647609000806);
#176=ADVANCED_FACE('',(#170),#175,.F.);
#177=ORIENTED_EDGE('',*,*,#166,.T.);
#178=CARTESIAN_POINT('',(0.000000000000000,163.700000000000,0.000000000000000));
#179=VERTEX_POINT('',#178);
#180=CARTESIAN_POINT('',(90.7153660000000,163.700000000000,0.000000000000000));
#181=DIRECTION('',(1.00000000000000,0.000000000000000,0.000000000000000));
#182=VECTOR('',#181,163.700000000000);
#183=LINE('',#180,#182);
#184=EDGE_CURVE('',#179,#154,#183,.T.);
#185=ORIENTED_EDGE('',*,*,#184,.F.);
#186=CARTESIAN_POINT('',(0.000000000000000,0.000000000000000,0.000000000000000));
#187=DIRECTION('',(1.00000000000000,0.000000000000000,0.000000000000000));
#188=DIRECTION('',(0.000000000000000,1.00000000000000,0.000000000000000));
#189=AXIS2_PLACEMENT_3D('',#186,#187,#188);
#190=CIRCLE('',#189,163.700000000000);
#191=EDGE_CURVE('',#179,#179,#190,.T.);
#192=ORIENTED_EDGE('',*,*,#191,.F.);
#193=ORIENTED_EDGE('',*,*,#184,.T.);
#194=EDGE_LOOP('',(#177,#185,#192,#193));
#195=FACE_OUTER_BOUND('',#194,.T.);
#196=CARTESIAN_POINT('',(90.7153660000000,0.000000000000000,0.000000000000000));
#197=DIRECTION('',(1.00000000000000,0.000000000000000,0.000000000000000));
#198=DIRECTION('',(0.000000000000000,1.00000000000000,0.000000000000000));
#199=AXIS2_PLACEMENT_3D('',#196,#197,#198);
#200=CYLINDRICAL_SURFACE('',#199,163.700000000000);
#201=ADVANCED_FACE('',(#195),#200,.F.);
#202=ORIENTED_EDGE('',*,*,#46,.F.);
#203=EDGE_LOOP('',(#202));
#204=FACE_OUTER_BOUND('',#203,.T.);
#205=ORIENTED_EDGE('',*,*,#191,.T.);
#206=EDGE_LOOP('',(#205));
#207=FACE_BOUND('',#206,.T.);
#208=CARTESIAN_POINT('',(0.000000000000000,181.850000000000,0.000000000000000));
#209=DIRECTION('',(-1.00000000000000,0.000000000000000,0.000000000000000));
#210=DIRECTION('',(-0.000000000000000,-1.00000000000000,-0.000000000000000));
#211=AXIS2_PLACEMENT_3D('',#208,#209,#210);
#212=PLANE('',#211);
#213=ADVANCED_FACE('',(#204,#207),#212,.T.);
#214=CLOSED_SHELL('',(#56,#81,#106,#126,#151,#176,#201,#213));
#215=MANIFOLD_SOLID_BREP('',#214);
#216=ADVANCED_BREP_SHAPE_REPRESENTATION('',(#215,#23),#18);
#217=APPROVAL_ROLE ( 'APPROVER' ) ;
#218=APPROVAL_STATUS ( 'approved' ) ;
#219=APPROVAL ( #218, 'UNSPECIFIED' ) ;
#220=APPROVAL_DATE_TIME ( #5, #219 ) ;
#221=PERSON_AND_ORGANIZATION_ROLE ('design_owner') ;
#222=PERSON_AND_ORGANIZATION_ROLE ('creator') ;
#223=PERSON_AND_ORGANIZATION_ROLE ('design_supplier') ;
#224=PERSON_AND_ORGANIZATION_ROLE ('classification_officer') ;
#225=PERSON ( 'UNSPECIFIED', 'UNSPECIFIED', 'UNSPECIFIED', ('UNSPECIFIED'), ('UNSPECIFIED'), ('UNSPECIFIED') ) ;
#226=ORGANIZATION ( 'UNSPECIFIED', 'UNSPECIFIED', '' ) ;
#227=PERSON_AND_ORGANIZATION ( #225, #226 ) ;
#228=APPROVAL_PERSON_ORGANIZATION ( #227, #219, #217 ) ;
#229=SECURITY_CLASSIFICATION_LEVEL ( 'unclassified' ) ;
#230=SECURITY_CLASSIFICATION ( ' ', ' ', #229 ) ;
#231=CC_DESIGN_APPROVAL ( #219, (#230)) ;
#232=CC_DESIGN_DATE_AND_TIME_ASSIGNMENT ( #5, #19 ,(#230)) ;
#233=CC_DESIGN_PERSON_AND_ORGANIZATION_ASSIGNMENT (#227, #224, (#230)) ;
#234=PRODUCT('', '', ' ',(#2));
#235=PRODUCT_DEFINITION_FORMATION_WITH_SPECIFIED_SOURCE (' ', ' ', #234, .NOT_KNOWN.) ;
#236=CC_DESIGN_APPROVAL ( #219, (#235)) ;
#237=CC_DESIGN_PERSON_AND_ORGANIZATION_ASSIGNMENT (#227, #222, (#235)) ;
#238=CC_DESIGN_PERSON_AND_ORGANIZATION_ASSIGNMENT (#227, #223, (#235)) ;
#239=CC_DESIGN_SECURITY_CLASSIFICATION ( #230, (#235) ) ;
#240=CC_DESIGN_PERSON_AND_ORGANIZATION_ASSIGNMENT (#227, #221, (#234)) ;
#241=PRODUCT_CATEGORY('part','') ;
#242=PRODUCT_RELATED_PRODUCT_CATEGORY('detail', ' ', (#234)) ;
#243=PRODUCT_CATEGORY_RELATIONSHIP(' ', ' ', #241, #242);
#244=PRODUCT_DEFINITION('', '', #235, #1);
#245=PRODUCT_DEFINITION_SHAPE('NONE', 'NONE', #244);
#246=CC_DESIGN_DATE_AND_TIME_ASSIGNMENT ( #5, #6 ,(#244)) ;
#247=CC_DESIGN_APPROVAL ( #219, (#244)) ;
#248=CC_DESIGN_PERSON_AND_ORGANIZATION_ASSIGNMENT (#227, #222, (#244)) ;
#249=SHAPE_DEFINITION_REPRESENTATION(#245, #216);
#250=CARTESIAN_POINT('',(0.000000000000000,163.700000000000,0.000000000000000));
#251=DIRECTION('',(0.000000000000000,1.00000000000000,0.000000000000000));
#252=VECTOR('',#251,1.00000000000000);
#253=LINE('',#250,#252);
#254=TRIMMED_CURVE('',#253,(PARAMETER_VALUE(0.000000000000000)),(PARAMETER_VALUE(36.3000000000000)),.T.,.UNSPECIFIED.);
#255=CARTESIAN_POINT('',(0.000000000000000,200.000000000000,0.000000000000000));
#256=DIRECTION('',(1.00000000000000,0.000000000000000,0.000000000000000));
#257=VECTOR('',#256,1.00000000000000);
#258=LINE('',#255,#257);
#259=TRIMMED_CURVE('',#258,(PARAMETER_VALUE(0.000000000000000)),(PARAMETER_VALUE(190.000000000000)),.T.,.UNSPECIFIED.);
#260=CARTESIAN_POINT('',(190.000000000000,200.000000000000,0.000000000000000));
#261=DIRECTION('',(0.894427190999916,-0.447213595499958,0.000000000000000));
#262=VECTOR('',#261,1.00000000000000);
#263=LINE('',#260,#262);
#264=TRIMMED_CURVE('',#263,(PARAMETER_VALUE(0.000000000000000)),(PARAMETER_VALUE(134.164078649987)),.T.,.UNSPECIFIED.);
#265=CARTESIAN_POINT('',(310.000000000000,140.000000000000,0.000000000000000));
#266=DIRECTION('',(1.00000000000000,0.000000000000000,0.000000000000000));
#267=VECTOR('',#266,1.00000000000000);
#268=LINE('',#265,#267);
#269=TRIMMED_CURVE('',#268,(PARAMETER_VALUE(0.000000000000000)),(PARAMETER_VALUE(155.000000000000)),.T.,.UNSPECIFIED.);
#270=CARTESIAN_POINT('',(465.000000000000,140.000000000000,0.000000000000000));
#271=DIRECTION('',(0.000000000000000,-1.00000000000000,0.000000000000000));
#272=VECTOR('',#271,1.00000000000000);
#273=LINE('',#270,#272);
#274=TRIMMED_CURVE('',#273,(PARAMETER_VALUE(0.000000000000000)),(PARAMETER_VALUE(36.3000000000000)),.T.,.UNSPECIFIED.);
#275=CARTESIAN_POINT('',(465.000000000000,103.700000000000,0.000000000000000));
#276=DIRECTION('',(-1.00000000000000,0.000000000000000,0.000000000000000));
#277=VECTOR('',#276,1.00000000000000);
#278=LINE('',#275,#277);
#279=TRIMMED_CURVE('',#278,(PARAMETER_VALUE(0.000000000000000)),(PARAMETER_VALUE(163.569268000000)),.T.,.UNSPECIFIED.);
#280=CARTESIAN_POINT('',(301.430732000000,103.700000000000,0.000000000000000));
#281=DIRECTION('',(-0.894427190999916,0.447213595499958,0.000000000000000));
#282=VECTOR('',#281,1.00000000000000);
#283=LINE('',#280,#282);
#284=TRIMMED_CURVE('',#283,(PARAMETER_VALUE(0.000000000000000)),(PARAMETER_VALUE(134.164078649987)),.T.,.UNSPECIFIED.);
#285=CARTESIAN_POINT('',(181.430732000000,163.700000000000,0.000000000000000));
#286=DIRECTION('',(-1.00000000000000,0.000000000000000,0.000000000000000));
#287=VECTOR('',#286,1.00000000000000);
#288=LINE('',#285,#287);
#289=TRIMMED_CURVE('',#288,(PARAMETER_VALUE(0.000000000000000)),(PARAMETER_VALUE(181.430732000000)),.T.,.UNSPECIFIED.);
#290=GEOMETRIC_CURVE_SET(' ',(#254,#259,#264,#269,#274,#279,#284,#289));
#291=GEOMETRICALLY_BOUNDED_WIREFRAME_SHAPE_REPRESENTATION('',(#290,#23),#18);
#292=APPROVAL_ROLE ( 'APPROVER' ) ;
#293=APPROVAL_STATUS ( 'approved' ) ;
#294=APPROVAL ( #293, 'UNSPECIFIED' ) ;
#295=APPROVAL_DATE_TIME ( #5, #294 ) ;
#296=PERSON_AND_ORGANIZATION_ROLE ('design_owner') ;
#297=PERSON_AND_ORGANIZATION_ROLE ('creator') ;
#298=PERSON_AND_ORGANIZATION_ROLE ('design_supplier') ;
#299=PERSON_AND_ORGANIZATION_ROLE ('classification_officer') ;
#300=PERSON ( 'UNSPECIFIED', 'UNSPECIFIED', 'UNSPECIFIED', ('UNSPECIFIED'), ('UNSPECIFIED'), ('UNSPECIFIED') ) ;
#301=ORGANIZATION ( 'UNSPECIFIED', 'UNSPECIFIED', '' ) ;
#302=PERSON_AND_ORGANIZATION ( #300, #301 ) ;
#303=APPROVAL_PERSON_ORGANIZATION ( #302, #294, #292 ) ;
#304=SECURITY_CLASSIFICATION_LEVEL ( 'unclassified' ) ;
#305=SECURITY_CLASSIFICATION ( ' ', ' ', #304 ) ;
#306=CC_DESIGN_APPROVAL ( #294, (#305)) ;
#307=CC_DESIGN_DATE_AND_TIME_ASSIGNMENT ( #5, #19 ,(#305)) ;
#308=CC_DESIGN_PERSON_AND_ORGANIZATION_ASSIGNMENT (#302, #299, (#305)) ;
#309=PRODUCT('', '', ' ',(#2));
#310=PRODUCT_DEFINITION_FORMATION_WITH_SPECIFIED_SOURCE (' ', ' ', #309, .NOT_KNOWN.) ;
#311=CC_DESIGN_APPROVAL ( #294, (#310)) ;
#312=CC_DESIGN_PERSON_AND_ORGANIZATION_ASSIGNMENT (#302, #297, (#310)) ;
#313=CC_DESIGN_PERSON_AND_ORGANIZATION_ASSIGNMENT (#302, #298, (#310)) ;
#314=CC_DESIGN_SECURITY_CLASSIFICATION ( #305, (#310) ) ;
#315=CC_DESIGN_PERSON_AND_ORGANIZATION_ASSIGNMENT (#302, #296, (#309)) ;
#316=PRODUCT_CATEGORY('part','') ;
#317=PRODUCT_RELATED_PRODUCT_CATEGORY('detail', ' ', (#309)) ;
#318=PRODUCT_CATEGORY_RELATIONSHIP(' ', ' ', #316, #317);
#319=PRODUCT_DEFINITION('', '', #310, #1);
#320=PRODUCT_DEFINITION_SHAPE('NONE', 'NONE', #319);
#321=CC_DESIGN_DATE_AND_TIME_ASSIGNMENT ( #5, #6 ,(#319)) ;
#322=CC_DESIGN_APPROVAL ( #294, (#319)) ;
#323=CC_DESIGN_PERSON_AND_ORGANIZATION_ASSIGNMENT (#302, #297, (#319)) ;
#324=SHAPE_DEFINITION_REPRESENTATION(#320, #291);
#325=PRESENTATION_LAYER_ASSIGNMENT('','SketchLevel [2000]',(#254,#259,#264,#269,#274,#279,#284,#289));
#326=PRESENTATION_LAYER_ASSIGNMENT('','Unnamed [1]',(#215));
ENDSEC;
END-ISO-10303-21;
