ISO-10303-21;
HEADER;
FILE_DESCRIPTION(('Beschreibung'),'1');
FILE_NAME('V:/Ziel/25.25.01.103_SDR_11_PE100_160.STP', '2014-09-15T06:01:24',('Author'), ('Organization'), 'KCM Version 1.1.794.0', 'Kubotek KeyCreator', 'Authorization');
FILE_SCHEMA(('CONFIG_CONTROL_DESIGN'));
ENDSEC;
DATA;
#1=DESIGN_CONTEXT('',#4,'design');
#2=MECHANICAL_CONTEXT('',#4,'mechanical');
#3=APPLICATION_PROTOCOL_DEFINITION('INTERNATIONAL STANDARD','config_control_design',1994,#4);
#4=APPLICATION_CONTEXT('CONFIGURATION CONTROLLED 3D DESIGNS OF MECHANICAL PARTS AND ASSEMBLIES');
#5=DATE_AND_TIME(#8,#9);
#6=DATE_TIME_ROLE('creation_date');
#7=COORDINATED_UNIVERSAL_TIME_OFFSET(5,30,.AHEAD.);
#8=CALENDAR_DATE(2014,9,15);
#9=LOCAL_TIME(06,01,24.0,#7);
#10=DIMENSIONAL_EXPONENTS(1.0,0.0,0.0,0.0,0.0,0.0,0.0);
#11=DIMENSIONAL_EXPONENTS(0.0,0.0,0.0,0.0,0.0,0.0,0.0);
#12= (NAMED_UNIT(#10)LENGTH_UNIT()SI_UNIT(.MILLI.,.METRE.));
#13= (NAMED_UNIT(#11)PLANE_ANGLE_UNIT()SI_UNIT($,.RADIAN.));
#14= (NAMED_UNIT(#11)SOLID_ANGLE_UNIT()SI_UNIT($,.STERADIAN.));
#15=LENGTH_MEASURE_WITH_UNIT(LENGTH_MEASURE(1.0),#12);
#16= (CONVERSION_BASED_UNIT('MILLIMETRE',#15)LENGTH_UNIT()NAMED_UNIT(#10));
#17=UNCERTAINTY_MEASURE_WITH_UNIT(LENGTH_MEASURE(1.0E-006),#16,'','');
#18= (GEOMETRIC_REPRESENTATION_CONTEXT(3)GLOBAL_UNCERTAINTY_ASSIGNED_CONTEXT((#17))GLOBAL_UNIT_ASSIGNED_CONTEXT((#16,#13,#14))REPRESENTATION_CONTEXT('NONE','WORKSPACE'));
#19=DATE_TIME_ROLE('classification_date');
#20=CARTESIAN_POINT('',(0.000000000000000,0.000000000000000,0.000000000000000));
#21=DIRECTION('',(0.000000000000000,0.000000000000000,1.00000000000000));
#22=DIRECTION('',(1.00000000000000,0.000000000000000,0.000000000000000));
#23=AXIS2_PLACEMENT_3D('',#20,#21,#22);
#24=CARTESIAN_POINT('',(-65.4000000000000,-649.999995000000,-8.00919006642369E-015));
#25=VERTEX_POINT('',#24);
#26=CARTESIAN_POINT('',(0.000000000000000,-649.999995000000,0.000000000000000));
#27=DIRECTION('',(-0.000000000000000,-1.00000000000000,-0.000000000000000));
#28=DIRECTION('',(1.00000000000000,0.000000000000000,0.000000000000000));
#29=AXIS2_PLACEMENT_3D('',#26,#27,#28);
#30=CIRCLE('',#29,65.4000000000000);
#31=EDGE_CURVE('',#25,#25,#30,.T.);
#32=ORIENTED_EDGE('',*,*,#31,.F.);
#33=CARTESIAN_POINT('',(-65.4000000000000,-1190.00000500000,8.00919006642369E-015));
#34=VERTEX_POINT('',#33);
#35=CARTESIAN_POINT('',(-65.4000000000000,-920.000000000000,0.000000000000000));
#36=DIRECTION('',(0.000000000000000,1.00000000000000,0.000000000000000));
#37=VECTOR('',#36,65.4000000000000);
#38=LINE('',#35,#37);
#39=EDGE_CURVE('',#34,#25,#38,.T.);
#40=ORIENTED_EDGE('',*,*,#39,.F.);
#41=CARTESIAN_POINT('',(0.000000000000000,-1190.00000500000,0.000000000000000));
#42=DIRECTION('',(0.000000000000000,1.00000000000000,0.000000000000000));
#43=DIRECTION('',(1.00000000000000,0.000000000000000,0.000000000000000));
#44=AXIS2_PLACEMENT_3D('',#41,#42,#43);
#45=CIRCLE('',#44,65.4000000000000);
#46=EDGE_CURVE('',#34,#34,#45,.T.);
#47=ORIENTED_EDGE('',*,*,#46,.F.);
#48=ORIENTED_EDGE('',*,*,#39,.T.);
#49=EDGE_LOOP('',(#32,#40,#47,#48));
#50=FACE_OUTER_BOUND('',#49,.T.);
#51=CARTESIAN_POINT('',(0.000000000000000,-920.000000000000,0.000000000000000));
#52=DIRECTION('',(0.000000000000000,1.00000000000000,0.000000000000000));
#53=DIRECTION('',(-1.00000000000000,0.000000000000000,0.000000000000000));
#54=AXIS2_PLACEMENT_3D('',#51,#52,#53);
#55=CYLINDRICAL_SURFACE('',#54,65.4000000000000);
#56=ADVANCED_FACE('',(#50),#55,.F.);
#57=CARTESIAN_POINT('',(80.0000000000000,-649.999995000000,0.000000000000000));
#58=VERTEX_POINT('',#57);
#59=CARTESIAN_POINT('',(0.000000000000000,-649.999995000000,0.000000000000000));
#60=DIRECTION('',(-0.000000000000000,-1.00000000000000,-0.000000000000000));
#61=DIRECTION('',(1.00000000000000,0.000000000000000,0.000000000000000));
#62=AXIS2_PLACEMENT_3D('',#59,#60,#61);
#63=CIRCLE('',#62,80.0000000000000);
#64=EDGE_CURVE('',#58,#58,#63,.T.);
#65=ORIENTED_EDGE('',*,*,#64,.T.);
#66=CARTESIAN_POINT('',(80.0000000000000,-1190.00000500000,0.000000000000000));
#67=VERTEX_POINT('',#66);
#68=CARTESIAN_POINT('',(80.0000000000000,-920.000000000000,0.000000000000000));
#69=DIRECTION('',(0.000000000000000,1.00000000000000,0.000000000000000));
#70=VECTOR('',#69,80.0000000000000);
#71=LINE('',#68,#70);
#72=EDGE_CURVE('',#67,#58,#71,.T.);
#73=ORIENTED_EDGE('',*,*,#72,.F.);
#74=CARTESIAN_POINT('',(0.000000000000000,-1190.00000500000,0.000000000000000));
#75=DIRECTION('',(0.000000000000000,1.00000000000000,0.000000000000000));
#76=DIRECTION('',(1.00000000000000,0.000000000000000,0.000000000000000));
#77=AXIS2_PLACEMENT_3D('',#74,#75,#76);
#78=CIRCLE('',#77,80.0000000000000);
#79=EDGE_CURVE('',#67,#67,#78,.T.);
#80=ORIENTED_EDGE('',*,*,#79,.T.);
#81=ORIENTED_EDGE('',*,*,#72,.T.);
#82=EDGE_LOOP('',(#65,#73,#80,#81));
#83=FACE_OUTER_BOUND('',#82,.T.);
#84=CARTESIAN_POINT('',(0.000000000000000,-920.000000000000,0.000000000000000));
#85=DIRECTION('',(0.000000000000000,1.00000000000000,0.000000000000000));
#86=DIRECTION('',(1.00000000000000,-0.000000000000000,0.000000000000000));
#87=AXIS2_PLACEMENT_3D('',#84,#85,#86);
#88=CYLINDRICAL_SURFACE('',#87,80.0000000000000);
#89=ADVANCED_FACE('',(#83),#88,.T.);
#90=ORIENTED_EDGE('',*,*,#64,.F.);
#91=EDGE_LOOP('',(#90));
#92=FACE_OUTER_BOUND('',#91,.T.);
#93=ORIENTED_EDGE('',*,*,#31,.T.);
#94=EDGE_LOOP('',(#93));
#95=FACE_BOUND('',#94,.T.);
#96=CARTESIAN_POINT('',(0.000000000000000,-649.999995000000,0.000000000000000));
#97=DIRECTION('',(0.000000000000000,1.00000000000000,0.000000000000000));
#98=DIRECTION('',(0.000000000000000,0.000000000000000,1.00000000000000));
#99=AXIS2_PLACEMENT_3D('',#96,#97,#98);
#100=PLANE('',#99);
#101=ADVANCED_FACE('',(#92,#95),#100,.T.);
#102=ORIENTED_EDGE('',*,*,#79,.F.);
#103=EDGE_LOOP('',(#102));
#104=FACE_OUTER_BOUND('',#103,.T.);
#105=ORIENTED_EDGE('',*,*,#46,.T.);
#106=EDGE_LOOP('',(#105));
#107=FACE_BOUND('',#106,.T.);
#108=CARTESIAN_POINT('',(0.000000000000000,-1190.00000500000,0.000000000000000));
#109=DIRECTION('',(0.000000000000000,1.00000000000000,0.000000000000000));
#110=DIRECTION('',(0.000000000000000,0.000000000000000,1.00000000000000));
#111=AXIS2_PLACEMENT_3D('',#108,#109,#110);
#112=PLANE('',#111);
#113=ADVANCED_FACE('',(#104,#107),#112,.F.);
#114=CLOSED_SHELL('',(#56,#89,#101,#113));
#115=MANIFOLD_SOLID_BREP('',#114);
#116=CARTESIAN_POINT('',(1012.85977159842,920.370175998420,1.26217744835362E-029));
#117=VERTEX_POINT('',#116);
#118=CARTESIAN_POINT('',(966.614973476539,966.614973476539,1.26217744835362E-029));
#119=DIRECTION('',(-0.707106776264813,-0.707106786108282,-1.23259516440783E-032));
#120=DIRECTION('',(-0.707106786108282,0.707106776264813,1.22464679914735E-016));
#121=AXIS2_PLACEMENT_3D('',#118,#119,#120);
#122=CIRCLE('',#121,65.4000202379615);
#123=EDGE_CURVE('',#117,#117,#122,.T.);
#124=ORIENTED_EDGE('',*,*,#123,.F.);
#125=CARTESIAN_POINT('',(46.2447946453423,-46.2448009546578,0.000000000000000));
#126=VERTEX_POINT('',#125);
#127=CARTESIAN_POINT('',(529.622993800000,437.133398200000,0.000000000000000));
#128=DIRECTION('',(0.707106781186548,0.707106781186548,0.000000000000000));
#129=VECTOR('',#128,65.4000202379615);
#130=LINE('',#127,#129);
#131=EDGE_CURVE('',#126,#117,#130,.T.);
#132=ORIENTED_EDGE('',*,*,#131,.F.);
#133=CARTESIAN_POINT('',(-3.47653929111402E-006,-3.47653929111402E-006,0.000000000000000));
#134=DIRECTION('',(0.707106781186547,0.707106781186547,0.000000000000000));
#135=DIRECTION('',(0.707106781186547,-0.707106781186547,0.000000000000000));
#136=AXIS2_PLACEMENT_3D('',#133,#134,#135);
#137=CIRCLE('',#136,65.4000202379615);
#138=EDGE_CURVE('',#126,#126,#137,.T.);
#139=ORIENTED_EDGE('',*,*,#138,.F.);
#140=ORIENTED_EDGE('',*,*,#131,.T.);
#141=EDGE_LOOP('',(#124,#132,#139,#140));
#142=FACE_OUTER_BOUND('',#141,.T.);
#143=CARTESIAN_POINT('',(483.378196000000,483.378196000000,0.000000000000000));
#144=DIRECTION('',(0.707106781186548,0.707106781186548,0.000000000000000));
#145=DIRECTION('',(0.707106781186548,-0.707106781186548,0.000000000000000));
#146=AXIS2_PLACEMENT_3D('',#143,#144,#145);
#147=CYLINDRICAL_SURFACE('',#146,65.4000202379615);
#148=ADVANCED_FACE('',(#142),#147,.F.);
#149=CARTESIAN_POINT('',(1023.18353347654,910.046413476539,0.000000000000000));
#150=VERTEX_POINT('',#149);
#151=CARTESIAN_POINT('',(966.614973476539,966.614973476539,0.000000000000000));
#152=DIRECTION('',(-0.707106781186547,-0.707106781186547,-0.000000000000000));
#153=DIRECTION('',(0.707106781186548,-0.707106781186548,0.000000000000000));
#154=AXIS2_PLACEMENT_3D('',#151,#152,#153);
#155=CIRCLE('',#154,80.0000247559162);
#156=EDGE_CURVE('',#150,#150,#155,.T.);
#157=ORIENTED_EDGE('',*,*,#156,.T.);
#158=CARTESIAN_POINT('',(56.5685565234608,-56.5685634765392,0.000000000000000));
#159=VERTEX_POINT('',#158);
#160=CARTESIAN_POINT('',(539.876045000000,426.738925000000,0.000000000000000));
#161=DIRECTION('',(0.707106781186547,0.707106781186547,0.000000000000000));
#162=VECTOR('',#161,80.0000247559162);
#163=LINE('',#160,#162);
#164=EDGE_CURVE('',#159,#150,#163,.T.);
#165=ORIENTED_EDGE('',*,*,#164,.F.);
#166=CARTESIAN_POINT('',(-3.47653912058377E-006,-3.47653923427060E-006,0.000000000000000));
#167=DIRECTION('',(0.707106781186547,0.707106781186547,0.000000000000000));
#168=DIRECTION('',(0.707106781186548,-0.707106781186548,0.000000000000000));
#169=AXIS2_PLACEMENT_3D('',#166,#167,#168);
#170=CIRCLE('',#169,80.0000247559162);
#171=EDGE_CURVE('',#159,#159,#170,.T.);
#172=ORIENTED_EDGE('',*,*,#171,.T.);
#173=ORIENTED_EDGE('',*,*,#164,.T.);
#174=EDGE_LOOP('',(#157,#165,#172,#173));
#175=FACE_OUTER_BOUND('',#174,.T.);
#176=CARTESIAN_POINT('',(483.307485000000,483.307485000000,0.000000000000000));
#177=DIRECTION('',(0.707106781186547,0.707106781186547,0.000000000000000));
#178=DIRECTION('',(0.707106781186548,-0.707106781186548,0.000000000000000));
#179=AXIS2_PLACEMENT_3D('',#176,#177,#178);
#180=CYLINDRICAL_SURFACE('',#179,80.0000247559162);
#181=ADVANCED_FACE('',(#175),#180,.T.);
#182=ORIENTED_EDGE('',*,*,#156,.F.);
#183=EDGE_LOOP('',(#182));
#184=FACE_OUTER_BOUND('',#183,.T.);
#185=ORIENTED_EDGE('',*,*,#123,.T.);
#186=EDGE_LOOP('',(#185));
#187=FACE_BOUND('',#186,.T.);
#188=CARTESIAN_POINT('',(966.614973476539,966.614973476539,0.000000000000000));
#189=DIRECTION('',(0.707106781186547,0.707106781186547,0.000000000000000));
#190=DIRECTION('',(0.000000000000000,0.000000000000000,-1.00000000000000));
#191=AXIS2_PLACEMENT_3D('',#188,#189,#190);
#192=PLANE('',#191);
#193=ADVANCED_FACE('',(#184,#187),#192,.T.);
#194=ORIENTED_EDGE('',*,*,#171,.F.);
#195=EDGE_LOOP('',(#194));
#196=FACE_OUTER_BOUND('',#195,.T.);
#197=ORIENTED_EDGE('',*,*,#138,.T.);
#198=EDGE_LOOP('',(#197));
#199=FACE_BOUND('',#198,.T.);
#200=CARTESIAN_POINT('',(-3.47653912058377E-006,-3.47653923427060E-006,0.000000000000000));
#201=DIRECTION('',(0.707106781186547,0.707106781186547,0.000000000000000));
#202=DIRECTION('',(0.000000000000000,0.000000000000000,-1.00000000000000));
#203=AXIS2_PLACEMENT_3D('',#200,#201,#202);
#204=PLANE('',#203);
#205=ADVANCED_FACE('',(#196,#199),#204,.F.);
#206=CLOSED_SHELL('',(#148,#181,#193,#205));
#207=MANIFOLD_SOLID_BREP('',#206);
#208=ADVANCED_BREP_SHAPE_REPRESENTATION('',(#115,#207,#23),#18);
#209=APPROVAL_ROLE ( 'APPROVER' ) ;
#210=APPROVAL_STATUS ( 'approved' ) ;
#211=APPROVAL ( #210, 'UNSPECIFIED' ) ;
#212=APPROVAL_DATE_TIME ( #5, #211 ) ;
#213=PERSON_AND_ORGANIZATION_ROLE ('design_owner') ;
#214=PERSON_AND_ORGANIZATION_ROLE ('creator') ;
#215=PERSON_AND_ORGANIZATION_ROLE ('design_supplier') ;
#216=PERSON_AND_ORGANIZATION_ROLE ('classification_officer') ;
#217=PERSON ( 'UNSPECIFIED', 'UNSPECIFIED', 'UNSPECIFIED', ('UNSPECIFIED'), ('UNSPECIFIED'), ('UNSPECIFIED') ) ;
#218=ORGANIZATION ( 'UNSPECIFIED', 'UNSPECIFIED', '' ) ;
#219=PERSON_AND_ORGANIZATION ( #217, #218 ) ;
#220=APPROVAL_PERSON_ORGANIZATION ( #219, #211, #209 ) ;
#221=SECURITY_CLASSIFICATION_LEVEL ( 'unclassified' ) ;
#222=SECURITY_CLASSIFICATION ( ' ', ' ', #221 ) ;
#223=CC_DESIGN_APPROVAL ( #211, (#222)) ;
#224=CC_DESIGN_DATE_AND_TIME_ASSIGNMENT ( #5, #19 ,(#222)) ;
#225=CC_DESIGN_PERSON_AND_ORGANIZATION_ASSIGNMENT (#219, #216, (#222)) ;
#226=PRODUCT('', '', ' ',(#2));
#227=PRODUCT_DEFINITION_FORMATION_WITH_SPECIFIED_SOURCE (' ', ' ', #226, .NOT_KNOWN.) ;
#228=CC_DESIGN_APPROVAL ( #211, (#227)) ;
#229=CC_DESIGN_PERSON_AND_ORGANIZATION_ASSIGNMENT (#219, #214, (#227)) ;
#230=CC_DESIGN_PERSON_AND_ORGANIZATION_ASSIGNMENT (#219, #215, (#227)) ;
#231=CC_DESIGN_SECURITY_CLASSIFICATION ( #222, (#227) ) ;
#232=CC_DESIGN_PERSON_AND_ORGANIZATION_ASSIGNMENT (#219, #213, (#226)) ;
#233=PRODUCT_CATEGORY('part','') ;
#234=PRODUCT_RELATED_PRODUCT_CATEGORY('detail', ' ', (#226)) ;
#235=PRODUCT_CATEGORY_RELATIONSHIP(' ', ' ', #233, #234);
#236=PRODUCT_DEFINITION('', '', #227, #1);
#237=PRODUCT_DEFINITION_SHAPE('NONE', 'NONE', #236);
#238=CC_DESIGN_DATE_AND_TIME_ASSIGNMENT ( #5, #6 ,(#236)) ;
#239=CC_DESIGN_APPROVAL ( #211, (#236)) ;
#240=CC_DESIGN_PERSON_AND_ORGANIZATION_ASSIGNMENT (#219, #214, (#236)) ;
#241=SHAPE_DEFINITION_REPRESENTATION(#237, #208);
#242=CARTESIAN_POINT('',(0.000000000000000,-920.000000000000,0.000000000000000));
#243=DIRECTION('',(0.000000000000000,1.00000000000000,0.000000000000000));
#244=DIRECTION('',(1.00000000000000,0.000000000000000,0.000000000000000));
#245=AXIS2_PLACEMENT_3D('',#242,#243,#244);
#246=CIRCLE('',#245,80.0000000000000);
#247=TRIMMED_CURVE('',#246,(PARAMETER_VALUE(0.000000000000000)),(PARAMETER_VALUE(6.28318530717959)),.T.,.UNSPECIFIED.);
#248=CARTESIAN_POINT('',(483.307485000000,483.307485000000,0.000000000000000));
#249=DIRECTION('',(0.707106781186548,0.707106781186548,0.000000000000000));
#250=DIRECTION('',(0.707106781186548,-0.707106781186548,0.000000000000000));
#251=AXIS2_PLACEMENT_3D('',#248,#249,#250);
#252=CIRCLE('',#251,80.0000247559162);
#253=TRIMMED_CURVE('',#252,(PARAMETER_VALUE(0.000000000000000)),(PARAMETER_VALUE(6.28318530717959)),.T.,.UNSPECIFIED.);
#254=CARTESIAN_POINT('',(0.000000000000000,-920.000000000000,0.000000000000000));
#255=DIRECTION('',(0.000000000000000,1.00000000000000,0.000000000000000));
#256=DIRECTION('',(1.00000000000000,0.000000000000000,0.000000000000000));
#257=AXIS2_PLACEMENT_3D('',#254,#255,#256);
#258=CIRCLE('',#257,65.4000000000000);
#259=TRIMMED_CURVE('',#258,(PARAMETER_VALUE(0.000000000000000)),(PARAMETER_VALUE(6.28318530717959)),.T.,.UNSPECIFIED.);
#260=CARTESIAN_POINT('',(483.378196000000,483.378196000000,0.000000000000000));
#261=DIRECTION('',(0.707106781186548,0.707106781186548,0.000000000000000));
#262=DIRECTION('',(0.707106781186548,-0.707106781186548,0.000000000000000));
#263=AXIS2_PLACEMENT_3D('',#260,#261,#262);
#264=CIRCLE('',#263,65.4000202379615);
#265=TRIMMED_CURVE('',#264,(PARAMETER_VALUE(0.000000000000000)),(PARAMETER_VALUE(6.28318530717959)),.T.,.UNSPECIFIED.);
#266=GEOMETRIC_CURVE_SET(' ',(#247,#253,#259,#265));
#267=GEOMETRICALLY_BOUNDED_WIREFRAME_SHAPE_REPRESENTATION('',(#266,#23),#18);
#268=APPROVAL_ROLE ( 'APPROVER' ) ;
#269=APPROVAL_STATUS ( 'approved' ) ;
#270=APPROVAL ( #269, 'UNSPECIFIED' ) ;
#271=APPROVAL_DATE_TIME ( #5, #270 ) ;
#272=PERSON_AND_ORGANIZATION_ROLE ('design_owner') ;
#273=PERSON_AND_ORGANIZATION_ROLE ('creator') ;
#274=PERSON_AND_ORGANIZATION_ROLE ('design_supplier') ;
#275=PERSON_AND_ORGANIZATION_ROLE ('classification_officer') ;
#276=PERSON ( 'UNSPECIFIED', 'UNSPECIFIED', 'UNSPECIFIED', ('UNSPECIFIED'), ('UNSPECIFIED'), ('UNSPECIFIED') ) ;
#277=ORGANIZATION ( 'UNSPECIFIED', 'UNSPECIFIED', '' ) ;
#278=PERSON_AND_ORGANIZATION ( #276, #277 ) ;
#279=APPROVAL_PERSON_ORGANIZATION ( #278, #270, #268 ) ;
#280=SECURITY_CLASSIFICATION_LEVEL ( 'unclassified' ) ;
#281=SECURITY_CLASSIFICATION ( ' ', ' ', #280 ) ;
#282=CC_DESIGN_APPROVAL ( #270, (#281)) ;
#283=CC_DESIGN_DATE_AND_TIME_ASSIGNMENT ( #5, #19 ,(#281)) ;
#284=CC_DESIGN_PERSON_AND_ORGANIZATION_ASSIGNMENT (#278, #275, (#281)) ;
#285=PRODUCT('', '', ' ',(#2));
#286=PRODUCT_DEFINITION_FORMATION_WITH_SPECIFIED_SOURCE (' ', ' ', #285, .NOT_KNOWN.) ;
#287=CC_DESIGN_APPROVAL ( #270, (#286)) ;
#288=CC_DESIGN_PERSON_AND_ORGANIZATION_ASSIGNMENT (#278, #273, (#286)) ;
#289=CC_DESIGN_PERSON_AND_ORGANIZATION_ASSIGNMENT (#278, #274, (#286)) ;
#290=CC_DESIGN_SECURITY_CLASSIFICATION ( #281, (#286) ) ;
#291=CC_DESIGN_PERSON_AND_ORGANIZATION_ASSIGNMENT (#278, #272, (#285)) ;
#292=PRODUCT_CATEGORY('part','') ;
#293=PRODUCT_RELATED_PRODUCT_CATEGORY('detail', ' ', (#285)) ;
#294=PRODUCT_CATEGORY_RELATIONSHIP(' ', ' ', #292, #293);
#295=PRODUCT_DEFINITION('', '', #286, #1);
#296=PRODUCT_DEFINITION_SHAPE('NONE', 'NONE', #295);
#297=CC_DESIGN_DATE_AND_TIME_ASSIGNMENT ( #5, #6 ,(#295)) ;
#298=CC_DESIGN_APPROVAL ( #270, (#295)) ;
#299=CC_DESIGN_PERSON_AND_ORGANIZATION_ASSIGNMENT (#278, #273, (#295)) ;
#300=SHAPE_DEFINITION_REPRESENTATION(#296, #267);
#301=PRESENTATION_LAYER_ASSIGNMENT('','SketchLevel [2000]',(#247,#253,#259,#265));
#302=PRESENTATION_LAYER_ASSIGNMENT('','Unnamed [1]',(#115));
ENDSEC;
END-ISO-10303-21;
